Пачка сигарет




Слова и аккорды песни "Пачка сигарет" Виктора Цоя и группы Кино. Альбом "Звезда по имени Солнце" (1989)

          Am        C         D         Em
e|------|-7-5-----|-0-3-0---|-----5-2-|----------|
H|------|-----5---|-------1-|-3-------|----------|
G|--4-5-|-------5-|---------|---2-----|-5-4--4-5-|
D|------|---------|---------|-0-------|----------|
A|------|-0-------|-3-------|---------|----------|
E|------|---------|---------|---------|-0--------|

   Am        C         D         Em
e|-5-------|-3-------|---5-2---|----------|
H|---5---5-|---5-----|-3-----3-|-0--------|
G|-----5---|-----4-5-|---------|---0--4-5-|
D|---------|---------|-0-------|----------|
A|-0-------|-3-------|---------|----------|
E|---------|---------|---------|-0--------|

   Am        C         D         Em
e|-7-5-----|-0-3-0---|-----5-2-|----------|
H|-----5---|-------1-|-3-------|----------|
G|-------5-|---------|---2-----|-5-4--4-5-|
D|---------|---------|-0-------|----------|
A|-0-------|-3-------|---------|----------|
E|---------|---------|---------|-0--------|

                               
   Am        C             D   Я  сижу...      
e|-5-------|-------------|-----2---|-----
H|---5---5-|---(7)-------|-----3---|-----
G|-----5---|-------(7)---|---2---2-|-----
D|---------|-------------|-0-------|-----
A|-0-------|-------------|---------|-----      (ноты в скобках -
E|---------|-8---------8-|---------|-0--- ....  натуральные флажолеты)


       
       Em       Am         C         D      Em
  Я сижу и смотрю в чужое небо из чужого окна,
        Am        C      D         Em
  И не вижу ни одной знакомой звезды.
       Am            C         D      Em
  Я ходил по всем дорогам и туда и сюда,
       Am          C         D       Em
  Обернулся и не смог разглядеть следы.

             Am              C   D      Em 
     Но если есть в кармане пачка  сигарет,
              Am            C         D         Em
     Значит всё не так уж плохо на сегодняшний день.
          Am         C          D         Em
     И билет на самолёт с серебристым крылом,
              Am       C       D       Em   /Am C D Em  Am C D/                      
     Что взлетая оставляет земле лишь тень.

        Em      Am C           D          Em
  И никто не хотел   быть виноватым без вина,
        Am      C          D        Em
  И никто не хотел руками жар загребать.
         Am       C        D            Em
  А без музыки и на миру смерть не красна,
         Am        C        D   Em
  А без музыки не хочется пропадать.

             Am              C   D      Em
     Но если есть в кармане пачка  сигарет,
              Am            C         D         Em
     Значит всё не так уж плохо на сегодняшний день.
          Am         C          D         Em
     И билет на самолёт с серебристым крылом,
              Am       C       D       Em   /Am C D Em Am/
     Что взлетая оставляет земле лишь тень.
 


 

Популярное о Викторе Цое